ISO-10303-21;
HEADER;
FILE_DESCRIPTION (( 'STEP AP203' ),
    '1' );
FILE_NAME ('BK7-LNPBSC-10-633.STEP',
    '2021-01-05T02:00:14',
    ( '' ),
    ( '' ),
    'SwSTEP 2.0',
    'SolidWorks 2020',
    '' );
FILE_SCHEMA (( 'CONFIG_CONTROL_DESIGN' ));
ENDSEC;

DATA;
#1 = CARTESIAN_POINT ( 'NONE',  ( 5.000000000000002665, 5.000000000000000000, 5.000000000000000000 ) ) ;
#2 = ORIENTED_EDGE ( 'NONE', *, *, #32, .T. ) ;
#3 = DIRECTION ( 'NONE',  ( -0.000000000000000000, 0.000000000000000000, 1.000000000000000000 ) ) ;
#4 = ORIENTED_EDGE ( 'NONE', *, *, #231, .T. ) ;
#5 = ORIENTED_EDGE ( 'NONE', *, *, #231, .F. ) ;
#6 = VECTOR ( 'NONE', #225, 1000.000000000000000 ) ;
#7 = APPROVAL_DATE_TIME ( #211, #11 ) ;
#8 = CARTESIAN_POINT ( 'NONE',  ( -5.000000000000000888, -4.999999999999998224, -5.000000000000000000 ) ) ;
#9 =( LENGTH_UNIT ( ) NAMED_UNIT ( * ) SI_UNIT ( .MILLI., .METRE. ) );
#10 = CC_DESIGN_APPROVAL ( #11, ( #171 ) ) ;
#11 = APPROVAL ( #54, 'UNSPECIFIED' ) ;
#12 = DIRECTION ( 'NONE',  ( 2.220446049250313081E-16, 1.000000000000000000, 0.000000000000000000 ) ) ;
#13 = DIRECTION ( 'NONE',  ( -0.7071067811865474617, 0.7071067811865475727, 0.000000000000000000 ) ) ;
#14 = ORIENTED_EDGE ( 'NONE', *, *, #166, .T. ) ;
#15 = CARTESIAN_POINT ( 'NONE',  ( 5.000000000000000888, 5.000000000000001776, -5.000000000000000000 ) ) ;
#16 = LINE ( 'NONE', #316, #70 ) ;
#17 = CC_DESIGN_DATE_AND_TIME_ASSIGNMENT ( #284, #303, ( #171 ) ) ;
#18 = LINE ( 'NONE', #244, #28 ) ;
#19 = APPROVAL ( #289, 'UNSPECIFIED' ) ;
#20 = EDGE_LOOP ( 'NONE', ( #14, #122, #136, #123 ) ) ;
#21 = ORIENTED_EDGE ( 'NONE', *, *, #238, .F. ) ;
#22 = DIRECTION ( 'NONE',  ( 2.220446049250313081E-16, 1.000000000000000000, 0.000000000000000000 ) ) ;
#23 = VECTOR ( 'NONE', #296, 1000.000000000000000 ) ;
#24 = ADVANCED_FACE ( 'NONE', ( #96 ), #144, .F. ) ;
#25 = CARTESIAN_POINT ( 'NONE',  ( 5.000000000000002665, 5.000000000000000000, -5.000000000000000000 ) ) ;
#26 = ORIENTED_EDGE ( 'NONE', *, *, #60, .T. ) ;
#27 = DIRECTION ( 'NONE',  ( -1.000000000000000000, 1.734723475976807094E-16, 0.000000000000000000 ) ) ;
#28 = VECTOR ( 'NONE', #42, 1000.000000000000000 ) ;
#29 = EDGE_LOOP ( 'NONE', ( #4, #217, #186, #264 ) ) ;
#30 = PERSON_AND_ORGANIZATION ( #135, #46 ) ;
#31 = CC_DESIGN_PERSON_AND_ORGANIZATION_ASSIGNMENT ( #259, #311, ( #99 ) ) ;
#32 = EDGE_CURVE ( 'NONE', #298, #164, #92, .T. ) ;
#33 = PLANE ( 'NONE',  #94 ) ;
#34 = ORIENTED_EDGE ( 'NONE', *, *, #203, .T. ) ;
#35 =( NAMED_UNIT ( * ) PLANE_ANGLE_UNIT ( ) SI_UNIT ( $, .RADIAN. ) );
#36 = VECTOR ( 'NONE', #261, 1000.000000000000000 ) ;
#37 = PERSON_AND_ORGANIZATION_ROLE ( 'design_owner' ) ;
#38 = AXIS2_PLACEMENT_3D ( 'NONE', #121, #175, #146 ) ;
#39 = DIRECTION ( 'NONE',  ( 0.7071067811865474617, -0.7071067811865475727, 0.000000000000000000 ) ) ;
#40 = DIRECTION ( 'NONE',  ( 1.000000000000000000, -4.857225732735059864E-17, 0.000000000000000000 ) ) ;
#41 = APPROVAL_PERSON_ORGANIZATION ( #170, #19, #169 ) ;
#42 = DIRECTION ( 'NONE',  ( -0.000000000000000000, -0.000000000000000000, -1.000000000000000000 ) ) ;
#43 = EDGE_CURVE ( 'NONE', #298, #79, #72, .T. ) ;
#44 = DIRECTION ( 'NONE',  ( 1.000000000000000000, -2.220446049250313081E-16, 0.000000000000000000 ) ) ;
#45 = DIRECTION ( 'NONE',  ( -0.000000000000000000, 0.000000000000000000, -1.000000000000000000 ) ) ;
#46 = ORGANIZATION ( 'UNSPECIFIED', 'UNSPECIFIED', '' ) ;
#47 = EDGE_CURVE ( 'NONE', #185, #131, #200, .T. ) ;
#48 = AXIS2_PLACEMENT_3D ( 'NONE', #180, #27, #130 ) ;
#49 = DIRECTION ( 'NONE',  ( 2.220446049250313081E-16, 1.000000000000000000, 0.000000000000000000 ) ) ;
#50 = DIRECTION ( 'NONE',  ( -4.857225732735059864E-17, -1.000000000000000000, 0.000000000000000000 ) ) ;
#51 = DIRECTION ( 'NONE',  ( 0.000000000000000000, -0.000000000000000000, 1.000000000000000000 ) ) ;
#52 = CC_DESIGN_DATE_AND_TIME_ASSIGNMENT ( #285, #309, ( #197 ) ) ;
#53 = ORIENTED_EDGE ( 'NONE', *, *, #220, .F. ) ;
#54 = APPROVAL_STATUS ( 'not_yet_approved' ) ;
#55 = PLANE ( 'NONE',  #48 ) ;
#56 = ORIENTED_EDGE ( 'NONE', *, *, #238, .T. ) ;
#57 = CARTESIAN_POINT ( 'NONE',  ( 5.000000000000000888, -5.000000000000000000, 5.000000000000000000 ) ) ;
#58 = ORIENTED_EDGE ( 'NONE', *, *, #124, .T. ) ;
#59 = CARTESIAN_POINT ( 'NONE',  ( -4.999999999999999112, -5.000000000000000000, 5.000000000000000000 ) ) ;
#60 = EDGE_CURVE ( 'NONE', #207, #298, #150, .T. ) ;
#61 = ORIENTED_EDGE ( 'NONE', *, *, #220, .T. ) ;
#62 = VECTOR ( 'NONE', #119, 1000.000000000000000 ) ;
#63 = CARTESIAN_POINT ( 'NONE',  ( 5.000000000000002665, 5.000000000000000000, 5.000000000000000000 ) ) ;
#64 = LINE ( 'NONE', #15, #249 ) ;
#65 = EDGE_CURVE ( 'NONE', #131, #255, #64, .T. ) ;
#66 = VECTOR ( 'NONE', #206, 1000.000000000000000 ) ;
#67 = APPROVAL_PERSON_ORGANIZATION ( #159, #11, #137 ) ;
#68 = ADVANCED_BREP_SHAPE_REPRESENTATION ( 'BK7-LNPBSC-10-633', ( #168, #271, #120 ), #305 ) ;
#69 = EDGE_LOOP ( 'NONE', ( #103, #53, #21 ) ) ;
#70 = VECTOR ( 'NONE', #91, 1000.000000000000000 ) ;
#71 = FACE_OUTER_BOUND ( 'NONE', #106, .T. ) ;
#72 = LINE ( 'NONE', #93, #229 ) ;
#73 = FACE_OUTER_BOUND ( 'NONE', #118, .T. ) ;
#74 = CARTESIAN_POINT ( 'NONE',  ( -4.999999999999999112, 5.000000000000001776, 5.000000000000000000 ) ) ;
#75 = PLANE ( 'NONE',  #80 ) ;
#76 = ADVANCED_FACE ( 'NONE', ( #71 ), #97, .F. ) ;
#77 = ORIENTED_EDGE ( 'NONE', *, *, #47, .T. ) ;
#78 = CARTESIAN_POINT ( 'NONE',  ( 0.000000000000000000, 0.000000000000000000, 5.000000000000000000 ) ) ;
#79 = VERTEX_POINT ( 'NONE', #245 ) ;
#80 = AXIS2_PLACEMENT_3D ( 'NONE', #156, #151, #126 ) ;
#81 = ORIENTED_EDGE ( 'NONE', *, *, #109, .F. ) ;
#82 = SHAPE_DEFINITION_REPRESENTATION ( #111, #68 ) ;
#83 = EDGE_CURVE ( 'NONE', #207, #233, #18, .T. ) ;
#84 = CARTESIAN_POINT ( 'NONE',  ( 5.000000000000000888, 5.000000000000001776, 5.000000000000000000 ) ) ;
#85 = PERSON_AND_ORGANIZATION ( #135, #46 ) ;
#86 = DATE_AND_TIME ( #237, #253 ) ;
#87 = CC_DESIGN_PERSON_AND_ORGANIZATION_ASSIGNMENT ( #30, #104, ( #99 ) ) ;
#88 = ADVANCED_FACE ( 'NONE', ( #179 ), #272, .F. ) ;
#89 = COORDINATED_UNIVERSAL_TIME_OFFSET ( 8, 0, .AHEAD. ) ;
#90 = ORIENTED_EDGE ( 'NONE', *, *, #65, .F. ) ;
#91 = DIRECTION ( 'NONE',  ( -0.7071067811865475727, -0.7071067811865474617, 0.000000000000000000 ) ) ;
#92 = LINE ( 'NONE', #218, #148 ) ;
#93 = CARTESIAN_POINT ( 'NONE',  ( -4.999999999999999112, -5.000000000000000000, 5.000000000000000000 ) ) ;
#94 = AXIS2_PLACEMENT_3D ( 'NONE', #202, #3, #105 ) ;
#95 = VECTOR ( 'NONE', #12, 1000.000000000000000 ) ;
#96 = FACE_OUTER_BOUND ( 'NONE', #20, .T. ) ;
#97 = PLANE ( 'NONE',  #177 ) ;
#98 = CARTESIAN_POINT ( 'NONE',  ( 5.000000000000000888, 5.000000000000001776, -5.000000000000000000 ) ) ;
#99 = PRODUCT_DEFINITION_FORMATION_WITH_SPECIFIED_SOURCE ( 'ANY', '', #216, .NOT_KNOWN. ) ;
#100 = CARTESIAN_POINT ( 'NONE',  ( 5.000000000000000888, -5.000000000000000000, 5.000000000000000000 ) ) ;
#101 = PLANE ( 'NONE',  #152 ) ;
#102 = FACE_OUTER_BOUND ( 'NONE', #69, .T. ) ;
#103 = ORIENTED_EDGE ( 'NONE', *, *, #176, .F. ) ;
#104 = PERSON_AND_ORGANIZATION_ROLE ( 'creator' ) ;
#105 = DIRECTION ( 'NONE',  ( 1.000000000000000000, 0.000000000000000000, 0.000000000000000000 ) ) ;
#106 = EDGE_LOOP ( 'NONE', ( #212, #81, #56, #77 ) ) ;
#107 = PERSON_AND_ORGANIZATION ( #135, #46 ) ;
#108 = CLOSED_SHELL ( 'NONE', ( #88, #24, #167, #221, #134 ) ) ;
#109 = EDGE_CURVE ( 'NONE', #287, #283, #201, .T. ) ;
#110 = ORIENTED_EDGE ( 'NONE', *, *, #83, .F. ) ;
#111 = PRODUCT_DEFINITION_SHAPE ( 'NONE', 'NONE',  #197 ) ;
#112 = VECTOR ( 'NONE', #182, 1000.000000000000000 ) ;
#113 = CARTESIAN_POINT ( 'NONE',  ( -5.000000000000000888, -4.999999999999998224, 5.000000000000000000 ) ) ;
#114 = APPLICATION_CONTEXT ( 'configuration controlled 3d designs of mechanical parts and assemblies' ) ;
#115 = CALENDAR_DATE ( 2021, 5, 1 ) ;
#116 = DIRECTION ( 'NONE',  ( 0.7071067811865475727, 0.7071067811865474617, 0.000000000000000000 ) ) ;
#117 = CARTESIAN_POINT ( 'NONE',  ( 0.000000000000000000, 0.000000000000000000, 0.000000000000000000 ) ) ;
#118 = EDGE_LOOP ( 'NONE', ( #34, #110, #199, #292 ) ) ;
#119 = DIRECTION ( 'NONE',  ( -0.000000000000000000, 0.000000000000000000, -1.000000000000000000 ) ) ;
#120 = AXIS2_PLACEMENT_3D ( 'NONE', #117, #282, #313 ) ;
#121 = CARTESIAN_POINT ( 'NONE',  ( -4.999999999999999112, -5.000000000000000000, 5.000000000000000000 ) ) ;
#122 = ORIENTED_EDGE ( 'NONE', *, *, #270, .F. ) ;
#123 = ORIENTED_EDGE ( 'NONE', *, *, #43, .T. ) ;
#124 = EDGE_CURVE ( 'NONE', #255, #283, #16, .T. ) ;
#125 = PLANE ( 'NONE',  #266 ) ;
#126 = DIRECTION ( 'NONE',  ( 1.000000000000000000, 0.000000000000000000, 0.000000000000000000 ) ) ;
#127 = LINE ( 'NONE', #248, #318 ) ;
#128 = ORIENTED_EDGE ( 'NONE', *, *, #109, .T. ) ;
#129 = ADVANCED_FACE ( 'NONE', ( #293 ), #101, .F. ) ;
#130 = DIRECTION ( 'NONE',  ( -1.734723475976807094E-16, -1.000000000000000000, 0.000000000000000000 ) ) ;
#131 = VERTEX_POINT ( 'NONE', #321 ) ;
#132 = PERSON_AND_ORGANIZATION_ROLE ( 'classification_officer' ) ;
#133 = LINE ( 'NONE', #276, #140 ) ;
#134 = ADVANCED_FACE ( 'NONE', ( #181 ), #75, .F. ) ;
#135 = PERSON ( 'UNSPECIFIED', 'UNSPECIFIED', 'UNSPECIFIED', ('UNSPECIFIED'), ('UNSPECIFIED'), ('UNSPECIFIED') ) ;
#136 = ORIENTED_EDGE ( 'NONE', *, *, #32, .F. ) ;
#137 = APPROVAL_ROLE ( '' ) ;
#138 = CARTESIAN_POINT ( 'NONE',  ( 5.000000000000000888, 5.000000000000001776, 5.000000000000000000 ) ) ;
#139 = MECHANICAL_CONTEXT ( 'NONE', #243, 'mechanical' ) ;
#140 = VECTOR ( 'NONE', #153, 1000.000000000000000 ) ;
#141 = VECTOR ( 'NONE', #209, 1000.000000000000000 ) ;
#142 = COORDINATED_UNIVERSAL_TIME_OFFSET ( 8, 0, .AHEAD. ) ;
#143 = DESIGN_CONTEXT ( 'detailed design', #114, 'design' ) ;
#144 = PLANE ( 'NONE',  #38 ) ;
#145 = ADVANCED_FACE ( 'NONE', ( #183 ), #125, .F. ) ;
#146 = DIRECTION ( 'NONE',  ( 0.000000000000000000, -0.000000000000000000, 1.000000000000000000 ) ) ;
#147 = DIRECTION ( 'NONE',  ( 1.000000000000000000, 0.000000000000000000, 0.000000000000000000 ) ) ;
#148 = VECTOR ( 'NONE', #147, 1000.000000000000000 ) ;
#149 = APPROVAL ( #213, 'UNSPECIFIED' ) ;
#150 = LINE ( 'NONE', #63, #23 ) ;
#151 = DIRECTION ( 'NONE',  ( -0.000000000000000000, 0.000000000000000000, 1.000000000000000000 ) ) ;
#152 = AXIS2_PLACEMENT_3D ( 'NONE', #301, #302, #307 ) ;
#153 = DIRECTION ( 'NONE',  ( -0.7071067811865475727, -0.7071067811865474617, 0.000000000000000000 ) ) ;
#154 = LINE ( 'NONE', #157, #198 ) ;
#155 = LOCAL_TIME ( 10, 0, 14.00000000000000000, #161 ) ;
#156 = CARTESIAN_POINT ( 'NONE',  ( 0.000000000000000000, 0.000000000000000000, -5.000000000000000000 ) ) ;
#157 = CARTESIAN_POINT ( 'NONE',  ( 5.000000000000000888, 5.000000000000001776, 5.000000000000000000 ) ) ;
#158 = ORIENTED_EDGE ( 'NONE', *, *, #294, .T. ) ;
#159 = PERSON_AND_ORGANIZATION ( #135, #46 ) ;
#160 = EDGE_CURVE ( 'NONE', #308, #255, #277, .T. ) ;
#161 = COORDINATED_UNIVERSAL_TIME_OFFSET ( 8, 0, .AHEAD. ) ;
#162 = LOCAL_TIME ( 10, 0, 14.00000000000000000, #256 ) ;
#163 = PERSON_AND_ORGANIZATION ( #135, #46 ) ;
#164 = VERTEX_POINT ( 'NONE', #100 ) ;
#165 = CARTESIAN_POINT ( 'NONE',  ( 5.000000000000000888, -5.000000000000000000, -5.000000000000000000 ) ) ;
#166 = EDGE_CURVE ( 'NONE', #79, #306, #279, .T. ) ;
#167 = ADVANCED_FACE ( 'NONE', ( #73 ), #55, .F. ) ;
#168 = MANIFOLD_SOLID_BREP ( 'Í¹Ì¨-À', #108 ) ;
#169 = APPROVAL_ROLE ( '' ) ;
#170 = PERSON_AND_ORGANIZATION ( #135, #46 ) ;
#171 = SECURITY_CLASSIFICATION ( '', '', #236 ) ;
#172 = DATE_AND_TIME ( #193, #299 ) ;
#173 = CARTESIAN_POINT ( 'NONE',  ( -4.999999999999999112, 5.000000000000001776, 5.000000000000000000 ) ) ;
#174 = ORIENTED_EDGE ( 'NONE', *, *, #65, .T. ) ;
#175 = DIRECTION ( 'NONE',  ( 0.000000000000000000, 1.000000000000000000, 0.000000000000000000 ) ) ;
#176 = EDGE_CURVE ( 'NONE', #308, #287, #133, .T. ) ;
#177 = AXIS2_PLACEMENT_3D ( 'NONE', #317, #44, #269 ) ;
#178 = EDGE_CURVE ( 'NONE', #164, #207, #224, .T. ) ;
#179 = FACE_OUTER_BOUND ( 'NONE', #29, .T. ) ;
#180 = CARTESIAN_POINT ( 'NONE',  ( 5.000000000000002665, 5.000000000000000000, 5.000000000000000000 ) ) ;
#181 = FACE_OUTER_BOUND ( 'NONE', #258, .T. ) ;
#182 = DIRECTION ( 'NONE',  ( 1.734723475976807094E-16, 1.000000000000000000, -0.000000000000000000 ) ) ;
#183 = FACE_OUTER_BOUND ( 'NONE', #219, .T. ) ;
#184 = AXIS2_PLACEMENT_3D ( 'NONE', #138, #13, #116 ) ;
#185 = VERTEX_POINT ( 'NONE', #74 ) ;
#186 = ORIENTED_EDGE ( 'NONE', *, *, #60, .F. ) ;
#187 = CALENDAR_DATE ( 2021, 5, 1 ) ;
#188 = PERSON_AND_ORGANIZATION_ROLE ( 'creator' ) ;
#189 = ORIENTED_EDGE ( 'NONE', *, *, #203, .F. ) ;
#190 =( NAMED_UNIT ( * ) SI_UNIT ( $, .STERADIAN. ) SOLID_ANGLE_UNIT ( ) );
#191 = ADVANCED_FACE ( 'NONE', ( #102 ), #304, .T. ) ;
#192 = APPROVAL_DATE_TIME ( #86, #19 ) ;
#193 = CALENDAR_DATE ( 2021, 5, 1 ) ;
#194 = EDGE_LOOP ( 'NONE', ( #223, #196, #280, #128 ) ) ;
#195 = VECTOR ( 'NONE', #204, 1000.000000000000000 ) ;
#196 = ORIENTED_EDGE ( 'NONE', *, *, #160, .F. ) ;
#197 = PRODUCT_DEFINITION ( 'UNKNOWN', '', #99, #143 ) ;
#198 = VECTOR ( 'NONE', #234, 1000.000000000000000 ) ;
#199 = ORIENTED_EDGE ( 'NONE', *, *, #178, .F. ) ;
#200 = LINE ( 'NONE', #173, #314 ) ;
#201 = LINE ( 'NONE', #242, #62 ) ;
#202 = CARTESIAN_POINT ( 'NONE',  ( 0.000000000000000000, 0.000000000000000000, 5.000000000000000000 ) ) ;
#203 = EDGE_CURVE ( 'NONE', #306, #233, #250, .T. ) ;
#204 = DIRECTION ( 'NONE',  ( 1.000000000000000000, 0.000000000000000000, 0.000000000000000000 ) ) ;
#205 = CARTESIAN_POINT ( 'NONE',  ( 5.000000000000002665, 5.000000000000000000, -5.000000000000000000 ) ) ;
#206 = DIRECTION ( 'NONE',  ( 1.734723475976807094E-16, 1.000000000000000000, -0.000000000000000000 ) ) ;
#207 = VERTEX_POINT ( 'NONE', #319 ) ;
#208 = CC_DESIGN_APPROVAL ( #19, ( #197 ) ) ;
#209 = DIRECTION ( 'NONE',  ( -0.7071067811865475727, -0.7071067811865474617, 0.000000000000000000 ) ) ;
#210 = ORIENTED_EDGE ( 'NONE', *, *, #47, .F. ) ;
#211 = DATE_AND_TIME ( #115, #162 ) ;
#212 = ORIENTED_EDGE ( 'NONE', *, *, #294, .F. ) ;
#213 = APPROVAL_STATUS ( 'not_yet_approved' ) ;
#214 = LINE ( 'NONE', #57, #36 ) ;
#215 = AXIS2_PLACEMENT_3D ( 'NONE', #267, #39, #246 ) ;
#216 = PRODUCT ( 'BK7-LNPBSC-10-633', 'BK7-LNPBSC-10-633', '', ( #139 ) ) ;
#217 = ORIENTED_EDGE ( 'NONE', *, *, #43, .F. ) ;
#218 = CARTESIAN_POINT ( 'NONE',  ( -4.999999999999999112, -5.000000000000000000, 5.000000000000000000 ) ) ;
#219 = EDGE_LOOP ( 'NONE', ( #90, #210, #61, #228 ) ) ;
#220 = EDGE_CURVE ( 'NONE', #185, #308, #154, .T. ) ;
#221 = ADVANCED_FACE ( 'NONE', ( #257 ), #33, .T. ) ;
#222 = ORIENTED_EDGE ( 'NONE', *, *, #166, .F. ) ;
#223 = ORIENTED_EDGE ( 'NONE', *, *, #124, .F. ) ;
#224 = LINE ( 'NONE', #1, #66 ) ;
#225 = DIRECTION ( 'NONE',  ( -0.000000000000000000, 0.000000000000000000, -1.000000000000000000 ) ) ;
#226 = PRODUCT_RELATED_PRODUCT_CATEGORY ( 'detail', '', ( #216 ) ) ;
#227 = FACE_OUTER_BOUND ( 'NONE', #194, .T. ) ;
#228 = ORIENTED_EDGE ( 'NONE', *, *, #160, .T. ) ;
#229 = VECTOR ( 'NONE', #268, 1000.000000000000000 ) ;
#230 = CC_DESIGN_PERSON_AND_ORGANIZATION_ASSIGNMENT ( #263, #188, ( #197 ) ) ;
#231 = EDGE_CURVE ( 'NONE', #233, #79, #251, .T. ) ;
#232 = CARTESIAN_POINT ( 'NONE',  ( -4.999999999999999112, -5.000000000000000000, -5.000000000000000000 ) ) ;
#233 = VERTEX_POINT ( 'NONE', #274 ) ;
#234 = DIRECTION ( 'NONE',  ( 1.000000000000000000, -4.857225732735059864E-17, 0.000000000000000000 ) ) ;
#235 = EDGE_LOOP ( 'NONE', ( #58, #158, #174 ) ) ;
#236 = SECURITY_CLASSIFICATION_LEVEL ( 'unclassified' ) ;
#237 = CALENDAR_DATE ( 2021, 5, 1 ) ;
#238 = EDGE_CURVE ( 'NONE', #287, #185, #127, .T. ) ;
#239 = CALENDAR_DATE ( 2021, 5, 1 ) ;
#240 = APPLICATION_PROTOCOL_DEFINITION ( 'international standard', 'config_control_design', 1994, #114 ) ;
#241 = APPLICATION_PROTOCOL_DEFINITION ( 'international standard', 'config_control_design', 1994, #243 ) ;
#242 = CARTESIAN_POINT ( 'NONE',  ( -5.000000000000000888, -4.999999999999998224, 5.000000000000000000 ) ) ;
#243 = APPLICATION_CONTEXT ( 'configuration controlled 3d designs of mechanical parts and assemblies' ) ;
#244 = CARTESIAN_POINT ( 'NONE',  ( 5.000000000000002665, 5.000000000000000000, 5.000000000000000000 ) ) ;
#245 = CARTESIAN_POINT ( 'NONE',  ( -4.999999999999999112, -5.000000000000000000, -5.000000000000000000 ) ) ;
#246 = DIRECTION ( 'NONE',  ( 0.7071067811865475727, 0.7071067811865474617, 0.000000000000000000 ) ) ;
#247 = CC_DESIGN_SECURITY_CLASSIFICATION ( #171, ( #99 ) ) ;
#248 = CARTESIAN_POINT ( 'NONE',  ( -5.000000000000000888, -4.999999999999998224, 5.000000000000000000 ) ) ;
#249 = VECTOR ( 'NONE', #40, 1000.000000000000000 ) ;
#250 = LINE ( 'NONE', #205, #112 ) ;
#251 = LINE ( 'NONE', #25, #141 ) ;
#252 = AXIS2_PLACEMENT_3D ( 'NONE', #78, #51, #49 ) ;
#253 = LOCAL_TIME ( 10, 0, 14.00000000000000000, #260 ) ;
#254 = CARTESIAN_POINT ( 'NONE',  ( 5.000000000000000888, 5.000000000000001776, 5.000000000000000000 ) ) ;
#255 = VERTEX_POINT ( 'NONE', #98 ) ;
#256 = COORDINATED_UNIVERSAL_TIME_OFFSET ( 8, 0, .AHEAD. ) ;
#257 = FACE_OUTER_BOUND ( 'NONE', #310, .T. ) ;
#258 = EDGE_LOOP ( 'NONE', ( #5, #189, #222 ) ) ;
#259 = PERSON_AND_ORGANIZATION ( #135, #46 ) ;
#260 = COORDINATED_UNIVERSAL_TIME_OFFSET ( 8, 0, .AHEAD. ) ;
#261 = DIRECTION ( 'NONE',  ( -0.000000000000000000, -0.000000000000000000, -1.000000000000000000 ) ) ;
#262 = ADVANCED_FACE ( 'NONE', ( #227 ), #275, .F. ) ;
#263 = PERSON_AND_ORGANIZATION ( #135, #46 ) ;
#264 = ORIENTED_EDGE ( 'NONE', *, *, #83, .T. ) ;
#265 = UNCERTAINTY_MEASURE_WITH_UNIT (LENGTH_MEASURE( 1.000000000000000082E-05 ), #9, 'distance_accuracy_value', 'NONE');
#266 = AXIS2_PLACEMENT_3D ( 'NONE', #320, #50, #300 ) ;
#267 = CARTESIAN_POINT ( 'NONE',  ( 5.000000000000002665, 5.000000000000000000, 5.000000000000000000 ) ) ;
#268 = DIRECTION ( 'NONE',  ( -0.000000000000000000, -0.000000000000000000, -1.000000000000000000 ) ) ;
#269 = DIRECTION ( 'NONE',  ( 0.000000000000000000, 0.000000000000000000, 1.000000000000000000 ) ) ;
#270 = EDGE_CURVE ( 'NONE', #164, #306, #214, .T. ) ;
#271 = MANIFOLD_SOLID_BREP ( '¾µÏ', #281 ) ;
#272 = PLANE ( 'NONE',  #215 ) ;
#273 = CC_DESIGN_APPROVAL ( #149, ( #99 ) ) ;
#274 = CARTESIAN_POINT ( 'NONE',  ( 5.000000000000002665, 5.000000000000000000, -5.000000000000000000 ) ) ;
#275 = PLANE ( 'NONE',  #184 ) ;
#276 = CARTESIAN_POINT ( 'NONE',  ( 5.000000000000000888, 5.000000000000001776, 5.000000000000000000 ) ) ;
#277 = LINE ( 'NONE', #254, #6 ) ;
#278 = ORIENTED_EDGE ( 'NONE', *, *, #178, .T. ) ;
#279 = LINE ( 'NONE', #232, #195 ) ;
#280 = ORIENTED_EDGE ( 'NONE', *, *, #176, .T. ) ;
#281 = CLOSED_SHELL ( 'NONE', ( #262, #76, #145, #191, #129 ) ) ;
#282 = DIRECTION ( 'NONE',  ( 0.000000000000000000, 0.000000000000000000, 1.000000000000000000 ) ) ;
#283 = VERTEX_POINT ( 'NONE', #8 ) ;
#284 = DATE_AND_TIME ( #239, #155 ) ;
#285 = DATE_AND_TIME ( #187, #295 ) ;
#286 = APPROVAL_PERSON_ORGANIZATION ( #163, #149, #315 ) ;
#287 = VERTEX_POINT ( 'NONE', #113 ) ;
#288 = CARTESIAN_POINT ( 'NONE',  ( -5.000000000000000888, -4.999999999999998224, -5.000000000000000000 ) ) ;
#289 = APPROVAL_STATUS ( 'not_yet_approved' ) ;
#290 = LINE ( 'NONE', #288, #95 ) ;
#291 = APPROVAL_DATE_TIME ( #172, #149 ) ;
#292 = ORIENTED_EDGE ( 'NONE', *, *, #270, .T. ) ;
#293 = FACE_OUTER_BOUND ( 'NONE', #235, .T. ) ;
#294 = EDGE_CURVE ( 'NONE', #283, #131, #290, .T. ) ;
#295 = LOCAL_TIME ( 10, 0, 14.00000000000000000, #142 ) ;
#296 = DIRECTION ( 'NONE',  ( -0.7071067811865475727, -0.7071067811865474617, 0.000000000000000000 ) ) ;
#297 = CC_DESIGN_PERSON_AND_ORGANIZATION_ASSIGNMENT ( #107, #132, ( #171 ) ) ;
#298 = VERTEX_POINT ( 'NONE', #59 ) ;
#299 = LOCAL_TIME ( 10, 0, 14.00000000000000000, #89 ) ;
#300 = DIRECTION ( 'NONE',  ( -1.000000000000000000, 4.857225732735059864E-17, 0.000000000000000000 ) ) ;
#301 = CARTESIAN_POINT ( 'NONE',  ( 0.000000000000000000, 0.000000000000000000, -5.000000000000000000 ) ) ;
#302 = DIRECTION ( 'NONE',  ( 0.000000000000000000, -0.000000000000000000, 1.000000000000000000 ) ) ;
#303 = DATE_TIME_ROLE ( 'classification_date' ) ;
#304 = PLANE ( 'NONE',  #252 ) ;
#305 =( GEOMETRIC_REPRESENTATION_CONTEXT ( 3 ) GLOBAL_UNCERTAINTY_ASSIGNED_CONTEXT ( ( #265 ) ) GLOBAL_UNIT_ASSIGNED_CONTEXT ( ( #9, #35, #190 ) ) REPRESENTATION_CONTEXT ( 'NONE', 'WORKASPACE' ) );
#306 = VERTEX_POINT ( 'NONE', #165 ) ;
#307 = DIRECTION ( 'NONE',  ( 2.220446049250313081E-16, 1.000000000000000000, 0.000000000000000000 ) ) ;
#308 = VERTEX_POINT ( 'NONE', #84 ) ;
#309 = DATE_TIME_ROLE ( 'creation_date' ) ;
#310 = EDGE_LOOP ( 'NONE', ( #26, #2, #278 ) ) ;
#311 = PERSON_AND_ORGANIZATION_ROLE ( 'design_supplier' ) ;
#312 = CC_DESIGN_PERSON_AND_ORGANIZATION_ASSIGNMENT ( #85, #37, ( #216 ) ) ;
#313 = DIRECTION ( 'NONE',  ( 1.000000000000000000, 0.000000000000000000, 0.000000000000000000 ) ) ;
#314 = VECTOR ( 'NONE', #45, 1000.000000000000000 ) ;
#315 = APPROVAL_ROLE ( '' ) ;
#316 = CARTESIAN_POINT ( 'NONE',  ( 5.000000000000000888, 5.000000000000001776, -5.000000000000000000 ) ) ;
#317 = CARTESIAN_POINT ( 'NONE',  ( -5.000000000000000888, -4.999999999999998224, 5.000000000000000000 ) ) ;
#318 = VECTOR ( 'NONE', #22, 1000.000000000000000 ) ;
#319 = CARTESIAN_POINT ( 'NONE',  ( 5.000000000000002665, 5.000000000000000000, 5.000000000000000000 ) ) ;
#320 = CARTESIAN_POINT ( 'NONE',  ( 5.000000000000000888, 5.000000000000001776, 5.000000000000000000 ) ) ;
#321 = CARTESIAN_POINT ( 'NONE',  ( -4.999999999999999112, 5.000000000000001776, -5.000000000000000000 ) ) ;
ENDSEC;
END-ISO-10303-21;
